| Visit Our Catalog at SteelGuitarShopper.com |
Oct 29: Comcast.net has stopped rejecting forum emails. 🙂

Post new topic Married to my waitress.
Reply to topic
Author Topic:  Married to my waitress.
Keith Currie

 

From:
Shellbrook, Saskatchewan, Canada
Post  Posted 27 Jan 2019 5:57 pm    
Reply with quote

Any one have tab for Pauls solo on Married to a waitress?
View user's profile Send private message Send e-mail

Ricky Davis


From:
Buda, Texas USA
Post  Posted 27 Jan 2019 8:36 pm    
Reply with quote

Are you talking about this song?>
"I don't even know your name"
https://youtu.be/-aNjYlgwBN0
Paul plays two solos...one at 1:56 and the other at 3:15.: they are on two different tuning necks.
So which do you want.
Ricky
_________________
Ricky Davis
Email Ricky: sshawaiian@austin.rr.com
View user's profile Send private message Send e-mail Visit poster's website

Ricky Davis


From:
Buda, Texas USA
Post  Posted 27 Jan 2019 8:41 pm    
Reply with quote

Here's the first one on E9

Tab:

I Don't Even Know Your Name/solo/Key of "E" E9th Pedal steel



F#---------------------------------------------------------------------------
Eb--------------------------------------------------10-----------------------
G#---------------------------------------------------------------------------
E --2~*0-----~3*0-----4~*0-----5~*0-----7--9~~10-----------------------------
B --------0--------0--------0--------7-----------10A--10A~10-----------------
G#----------------------------------------------------------10B~10-----------
F#-----------------------------------------------------------------10~9------
E -----------------------------------------------------------------------9R--
D ---------------------------------------------------------------------------
B ---------------------------------------------------------------------------
    1  .  2  .  3  .  4  .  1  .  2  .  3  .  4  .  1  .  2  .  3  .  4  . 
 *=lift bar/pull-off
 
F#---------------------------------------------------------------------------
Eb---------------------------------------------------------------------------
G#---------------------------------------------------------------------------
E ---------------------------------------------------------------------------
B ---------------------------------------------------------------------------
G#--------------12B~~~~~~~--12B------10B------12B------10B------12B---11~11B-
F#---------------------------------------------------------------------------
E --9~~~~~~~~12----------------12~10----10~12----12~10----10~12----12--------
D ---------------------------------------------------------------------------
B ---------------------------------------------------------------------------
    1  .  2  .  3  .  4  .  1  .  2  .  3  .  4  .  1  .  2  .  3  .  4  . 
 
 
F#---------------------------------------------------------------------------
Eb--------------------------------------------------------------7L-----------(Eb - D)
G#---------------------------------------------------------------------------
E --------------------------------------------------------------------7------
B --------------------------------------------------7~~~~~7A~~-----------7A~~
G#--11~12----12~10----10-------------------7~~7B-----------------------------
F#--------------------------10----------7--------7---------------------------
E --------12-------10----10----10~9------------------------------------------
D -----------------------------------9---------------------------------------
B ---------------------------------------------------------------------------
    1  .  2  .  3  .  4  .  1  .  2  .  3  .  4  .  1  .  2  .  3  .  4  . 
 
 
F#-----------------------------------10--------------------------------------
Eb------------------------------------10-------------------------------------
G#-----------------------12B-------------------------------------------------
E ------------------------12---------------------10--------------------------
B ~~~~~7--------------------12~~12B-----10A~10----10-------------------------
G#--------7B~~~~------------------------------------10B~~10--10B-------------
F#------------------------------------------------------------10-------------
E --------------------------------------------------------------10~~10L------
D ---------------------------------------------------------------------------
B ---------------------------------------------------------------------------
    1  .  2  .  3  .  4  .  1  .  2  .  3  .  4  .  1  .  2  .  3  .  4  . 
 
 
F#---------------------------------------------------------------------------
Eb---------------------------------------------------------------------------
G#---------------------------------------------------------------------------
E ---------------------------------------------------------------------------
B --------------------------------------------------------------7------------
G#--------------------------7B----------------------7B-----------------------
F#--------7--------7~~7R-------7R~7------------------------------------------(F#-G)
E --------------7--------7-----------7-----------------7~~6~~7-----7~~6~~7---
D --7--------7--------------------------7~~~~~~------------------------------
B ---------------------------------------------------------------------------
    1  .  2  .  3  .  4  .  1  .  2  .  3  .  4  .  1  .  2  .  3  .  4  . 
 see note below
 
F#---------------------------------------------------------------------------
Eb--------7L-----------------------------------------------------------------(Eb - D)
G#---------------------------------------------------------------------------
E --------------7-----------7-----6-----5------------------------------------
B --7~~7A----------7A~7-----7~7A--6A----5A----6A~~~~7A~~~~~~~~~~~~~~~~\------
G#-----------------------7B-------------------6B~~~~7B~~~~~~~~~~~~~~~~\------
F#---------------------------------------------------------------------------
E ---------------------------------------------------------------------------
D ---------------------------------------------------------------------------
B ---------------------------------------------------------------------------
    1  .  2  .  3  .  4  .  1  .  2  .  3  .  4  .  1  .  2  .  3  .  4  . 
 
 

note: alternativ way if you don't have F#-G on 7th string.
or if this feels easier.
F#---------------------------------------------------------------------------
Eb---------------------------------------------------------------------------
G#---------------------------------------------------------------------------
E ---------------------------------------------------------------------------
B --------------------------------------------------------------7------------
G#--------------------------8----------------------7B-----------------------
F#--------7--------7~~8--------8~~7------------------------------------------
E --------------7--------8L----------7-----------------7~~6~~7-----7~~6~~7---
D --7--------7--------------------------7~~~~~~------------------------------
B ---------------------------------------------------------------------------
    1  .  2  .  3  .  4  .  1  .  2  .  3  .  4  .  1  .  2  .  3  .  4  .

_________________
Ricky Davis
Email Ricky: sshawaiian@austin.rr.com
View user's profile Send private message Send e-mail Visit poster's website

Keith Currie

 

From:
Shellbrook, Saskatchewan, Canada
Post  Posted 27 Jan 2019 8:56 pm    
Reply with quote

Thanks Ricky Yes sorry I should have said I wanted both, I knew one was on C-6.
View user's profile Send private message Send e-mail

Ricky Davis


From:
Buda, Texas USA
Post  Posted 27 Jan 2019 9:46 pm    
Reply with quote

I don't have the C6th.
Ricky
_________________
Ricky Davis
Email Ricky: sshawaiian@austin.rr.com
View user's profile Send private message Send e-mail Visit poster's website

Keith Currie

 

From:
Shellbrook, Saskatchewan, Canada
Post  Posted 28 Jan 2019 8:07 am    
Reply with quote

NP thanks Ricky
View user's profile Send private message Send e-mail

Randy Schneider


From:
SW New Mexico, USA
Post  Posted 28 Jan 2019 9:17 am    
Reply with quote

Keith,

Maybe this old thread will help, and maybe not.

https://steelguitarforum.com/Forum8/HTML/000949.html
View user's profile Send private message Send e-mail

Ricky Davis


From:
Buda, Texas USA
Post  Posted 28 Jan 2019 1:36 pm    
Reply with quote

Thanks Randy; I"m sure that is where this E9 solo came from turned into "rebel and ricky tab site"...and there's the C6 in that thread too....I just looked at it and looks like it plays Mighty Fine.
Ricky
_________________
Ricky Davis
Email Ricky: sshawaiian@austin.rr.com
View user's profile Send private message Send e-mail Visit poster's website

Mike Selecky


From:
BrookPark, Ohio
Post  Posted 5 Feb 2019 4:20 am    
Reply with quote

Keith,


Leif Bruun demonstrated the C6th solo here:


https://www.youtube.com/watch?v=BL7bRQHYpoM
View user's profile Send private message Send e-mail

Bob Grado

 

From:
Holmdel, New Jersey
Post  Posted 30 Apr 2019 4:34 am    
Reply with quote

Here's an excellent tutorial on how to play the C6 solo o n the E9 neck. This guy can play!

https://www.youtube.com/watch?v=OsKmZY4-nBU
View user's profile Send private message Send e-mail

Bob Grado

 

From:
Holmdel, New Jersey
Post  Posted 30 Apr 2019 4:37 am    
Reply with quote

While I'm at it here's another great tutorial on the E9 solo.

https://www.youtube.com/watch?v=XbAg7oTtssc&t=638s
View user's profile Send private message Send e-mail


All times are GMT - 8 Hours
Jump to:  
Please review our Forum Rules and Policies
Our Online Catalog
Strings, CDs, instruction, and steel guitar accessories
www.SteelGuitarShopper.com

The Steel Guitar Forum
148 S. Cloverdale Blvd.
Cloverdale, CA 95425 USA

Click Here to Send a Donation

Email SteelGuitarForum@gmail.com for technical support.


BIAB Styles
Ray Price Shuffles for Band-in-a-Box
by Jim Baron