| Visit Our Catalog at SteelGuitarShopper.com |

Post new topic 5th string half-stop on All-pull PSG
Reply to topic
Author Topic:  5th string half-stop on All-pull PSG
Bengt Erlandsen


From:
Brekstad, NORWAY
Post  Posted 13 Nov 2000 3:09 pm    
Reply with quote

If I keep the 4th string raised a half-tone with a knee-lever.
I found out I had a half-stop on the 5th string using the C-pedal.
(The pedal that raise both 4th &5th string a full tone)

Using the full C-pedal with 4th string lowered also worked fine.


A little blue-shuffle example going from E to A


1----------------------------------------
2----------8---------8-------8-----------
3----------8---------8-------8-----------
4----8C~8R----8R-------------------------(don't release knee-raise)
5----------------------8~~8c-------------(half-C-pedal)
6-------------------------------8~~~~~~--
1 . . 2 . . 3 . . 4 . .


1----------------------8-----------------
2----8-----------------8--------------8~~
3----8--------8-----------------8-----8~~
4-------------8R----------------8R-------(don't release knee-raise)
5-------8~~8c----8~~8c----8~~8c----8c----(half-C-pedal)
6----------------------------------------
1 . . 2 . . 3 . . 4 . .


1----------------------------------------
2~~~~8LL------8LL------8~~8LL---8LL---8LL(full step lower Eb -> Db)
3~~~~~~~------8--------8--------8--------
4----------------------------------------
5----------8--------8--------8-----8-----
6----------------------------------------
1 . . 2 . . 3 . . 4 . .


1----------------------------------------
2-------------------8LL---------8LL------(full step lower Eb -> Db)
3----------8-----------------------------
4----8L~8C----8C~8L----------8C----------(don't release knee-lower)
5----------------------8~~8C-------------
6----------------------------------------
1 . . 2 . . 3 . . 4 . .
Try to let all notes ring together on this last one


Bengt
View user's profile Send private message
Todd Blair


From:
Richmond Virginia, USA
Post  Posted 18 Jan 2018 11:44 pm    
Reply with quote

Over 17 years after this post, I just sat down at 3am and found out that this 1/2 stop exists. Thank you!
_________________
Sho~Bud Pro III Custom,Rickenbacker 330, G&L ASAT Special.
View user's profile Send private message Send e-mail

All times are GMT - 8 Hours
Jump to:  
Please review our Forum Rules and Policies
Our Online Catalog
Strings, CDs, instruction, and steel guitar accessories
www.SteelGuitarShopper.com

Steel Guitar Music
Instrumental steel guitar CDs for your permanent collection
www.SteelGuitarMusic.com

BIAB Styles
Ray Price Shuffles for Band-in-a-Box
by Jim Baron

The Steel Guitar Forum
148 S. Cloverdale Blvd.
Cloverdale, CA 95425 USA

Support This Forum



advertisement